Intro/Verse

Only play the first note when starting the whole riff over

E:------------------------------------------------------------------
B:---10------------10------------10------------10--------------10--- <---4
G:---7-------------7------7------x-------------7-------7-------7---- <---1
D:-0-0-------------x------x------x-------------x-------x-------0----
A:----------9-9/10-10---9-9/---7-7-----9-9/10--10----9-9/---7-------
E:------------------------------------------------------------------
            3 (3)       2 (2)  1       3   (3)       2 (2)  1


Verse -> Pre-Chorus

E:-3------3------------
B:-1------1------------
G:-0------0------------
D:-2------x------------
A:-3------2------3--2-- <---1on2
E:---------------------
                 3  2


Pre-Chorus

E:-0------------3----------3-------------------------- <---4on3
B:-1------------3----------1---------------7\5-------- <---3on3
G:-2-------(0)--0----------0---------------x----------
D:-2--------0--------3--2--2---------------4\2--------
A:-0----3------------------3----2--3--3/5--------0h2--
E:----------------------------------------------------
        4            3  2       2  2  (2)        (1)


Pre-Chorus -> Chorus

Same as Pre-Chorus just cut off at the 3

E:-0------------3----------3---------- <---4on3
B:-1------------3----------1---------- <---3on3
G:-2-------(0)--0----------0----------
D:-2--------0--------3--2--2----------
A:-0----3------------------3----2--3--
E:------------------------------------
        4            3  2       2  3


Chorus

Always strum the D-chord a little longer before going to the transitions

E:-0-----1-----0-----3-- <---4on3
B:-3-----1-----1-----3-- <---3on3
G:-2-----2-----0-----0-- <---2on2
D:-0-----3-----2--------
A:-------------3--------
E:----------------------


Chorus -> Verse

E:---------
B:---------
G:---------
D:-3----2--
A:---------
E:---------
   3    2


Chorus/Jam -> Pre-Chorus

E:-0------------
B:-1------------
G:-2------------
D:-2------------
A:-0----3----2--
E:--------------
        3    2


"All Fall Down"

E:-8------8-------------1--
B:-x------7------7------1-- <---
G:-9------x------9------2-- <---3on9
D:-10-----9------8------3-- <---3on10(2on9, 1on8)
A:-------------------------
E:-------------------------


"All Fall Down" -> Jam/"Out of the Darkness..."

Same as "All Fall Down just cut off before F-chord

E:-8------8---------
B:-x------7------7-- <---1on7
G:-9------x------9-- <---3on9
D:-10-----9------8-- <---3on10(2on9, 1on8)
A:------------------
E:------------------


Jam/"Out of the Darkness..."

E:---1---------1---------1---------1-- <---1on1(2on 3rd 1)
B:---1---------1---------1---------1-- <---1on1(3on 3rd 1)
G:---2---------2---------2---------2-- <---2on2(4on 3rd 2)
D:-3-3-------0-0---------x---------x--
A:---------------------1-1-------3-3--
E:------------------------------------
   3                   1         3

Dave_Matthews_Band_-_Under_the_Table_and

Tuning

Standard E-A-D-G-B-E

Additional Tabs:

> B Tuning

Studio Track

Video Reference

You Never Know - Standard Tuning