Verse/Chorus:
e--------------------------|-----|
b--------------------------|-----|
g--------------------------|--2--|
d--------------------------|--3--|
a--8---10--12--8---10--12--|--3--|
E--10--10--10--10--10--10--|--1--|


Bridge:
e-----|-----|-----|-----|
b-----|-----|-----|-----|
g-----|-----|-----|-----|
d--3--|--3--|--3--|--3--|
a-----|-----|-----|-----|
E--3--|--6--|--1--|--1--|

e-----|-----|-----|-----|
b-----|-----|-----|-----|
g-----|-----|-----|-----|
d--3--|--3--|--3--|--3--|
a-----|-----|-----|-----|
E--3--|--6--|--1--|--1--|

e-----|-----|-----|-----|
b-----|-----|-----|-----|
g-----|-----|-----|-----|
d--3--|--3--|--3--|--3--|
a-----|-----|-----|-----|
E--3--|--6--|--1--|--1--|

e-----|-----|-----|-----|
b-----|-----|-----|-----|
g-----|-----|-----|-----|
d--3--|--3--|--3--|--3--|
a-----|-----|-----|-----|
E--3--|--6--|--1--|--1--|


Outro:

e-------------------------|-----------------------------|
b-(11)-10----10-----------|--------------10-------------|
g---------12-----12-10----|-10--10-10-12----12-10----10-|
d----------------------12-|-----------------------12----|
a-------------------------|-----------------------------|
E-------------------------|-----------------------------|
   **

e----10-----------------------|-----------------------10----|
b-------13-11-10-----10-------|--------------------------13-|
g-----------------12----12-10-|--------10----10-10----------|
d-12--------------------------|-12--12----12-------12-------|
a-----------------------------|-----------------------------|
E-----------------------------|-----------------------------|

**don't play first time around

Dave_Matthews_Band_-_Under_the_Table_and

Tuning

Standard E-A-D-G-B-E

Studio Track

Video Reference

You Might Die Trying