Mix with fingerpicked version for best sound


Intro

E:---------------------------------
B:------3-----3-----------3-----3--
G:-0h2--------2------0h2--------2--
D:---------0--0--------------------
A:---------------------------------
E:---------------------------3--3--
   (1)  3            (1)  3  2

E:--------------------------------
B:------3-----3----------3-----3-- <---3
G:-0h2--------x-----0h2--------x--
D:------------4----------------2-- <---4on4(1on2)
A:---------2--2-------------0--0--
E:--------------------------------
   (1)  3  1        (1)  3


Verse

E:----------------------------------
B:----3--------3--------3--------3-- <---3
G:----2--------2--------x--------x-- <---1
D:-0--0-----------------4--------2-- <---4on4(1on2)
A:-------------x-----2--2-----0--0-- <---1on2
E:----------3--3-------------------- <---2on3
            2        1


"I am no Superman..."

E:----------------------------------
B:----3--------3--------3--------3-- <---3
G:----2--------2--------0--------0-- <---1
D:-0-------------------------------- x3
A:----------3--------2--------1-----
E:----------------------------------
   3        2        1  3     1  3


End of "I am no Superman"

E:------------------------------------------
B:----3--------3-------3--------3--------3-- <---3
G:----2--------2-------0--------0--------0-- <---1
D:-0----------------------------------------
A:----------3-------1--------1--------1-----
E:------------------------------------------
            2       1  3     1  3     1  3


E:--------------------------------------
B:----3------------3-----3-----3-----3-- <---3
G:----2------------4-----4-----4-----4-- <---1on2(4on4)
D:-0---------------2-----2-----2-----2-- <---1
A:--------------3--3-----3-----3-----3-- <---2
E:--------------------------------------
                2


Lead into Breakdown

E:------------------
B:----3----------3-- <---3
G:----2----------2-- <---1
D:-0----------------
A:-----------3------
E:------------------
   3        2


Breakdown

When ending Breakdown, don't play slide or Zero AT END

E:-------------------------------
B:----8------3----3---3---3------ <---4on1
G:----x------x-------------------
D:----5------4----x---x----------
A:-7------5--5----2---3---x---0--
E:------------------------3------
   3      3       1   2   2


E:-------------------------------
B:----8------3----3---3-----(0)-- <---4on1
G:----x------x-------------------
D:----5------4-------------------
A:-7------5--5----2---3/-----0---
E:-------------------------------
   3      3       1   3

Dave_Matthews_Band_-_Under_the_Table_and

Tuning

Standard E-A-D-G-B-E

Studio Track

Video Reference

Where Are You Going - Strummed Version