solo

--15-14---------------------------------------------------------------------
---------15-13--12------------------------------------------12-13~~/16^-----
--------------------14--12-11------11--12-14-12------12-14------------------
-------------------------------14-----------------14------------------------
----------------------------------------------------------------------------
----------------------------------------------------------------------------

--15-14---------------------------------------------------------------------
---------15-13--12------------------------------------------12-13-15~~-----
--------------------14--12-11------11--12-14-12------12-14------------------
-------------------------------14-----------------14------------------------
----------------------------------------------------------------------------
----------------------------------------------------------------------------

Dave_Matthews_Band_-_Under_the_Table_and

Tuning

Standard E-A-D-G-B-E

Studio Track

Video Reference

Where Are You Going - Sax Album Solo