Intro

He Fools around w/ this lightly

E:----    E:----
B:----    B:----
G:----    G:----
D:---- or D:-4--
A:-9--    A:-x--
E:-9--    E:-2--
   1


Fill

E:-----------------------------
B:-----------------------------
G:--------11-------------------
D:----11------9----------------
A:-9-------------12--11--------
E:-----------------------(12)--
   1  3   4   1  4   3    4


Verse

First chord can also be played as Either of the Intro chords to get a deeper sound

E:-----------------------------------
B:-----------------------------------
G:-----------------------------------
D:-9---------12-----11---9--7--6--9--
A:-9---------x------x----x--x--x--9--
E:-----------10-----9----7--5--4-----
   1                              1


Chorus

Don't play last chord when returning to Verse or Fill

E:---------------------------------
B:---------------------------------
G:---------------------------------
D:-7-----7-----7-----10---9--7--6--
A:-x-----x-----5-----x----x--x--x--
E:-5-----3-----x-----8----7--5--4--


Break Down/End

E:------------------
B:------------------
G:-3--------1-------
D:-4--------2----1--
A:-4--------2----2--
E:-2--------0----2--

Dave_Matthews_Band_-_Under_the_Table_and

Tuning

Standard E-A-D-G-B-E

Additional Tabs:

> B Tuning

Studio Track

Video Reference

What You Are - Standard Tuning