Intro

He Fools around w/ this lightly

B:-----
F#:----
D:-----
A:--9--
E:--x--
B:--7--


Fill

B:------------------------------
F#:--------12-------------------
D:-----11------9----------------
A:--9-------------12--11--------
E:------------------------(12)--
B:------------------------------


Verse

First chord can also be played as the Intro chord to get a deeper sound

B:------------------------------------
F#:-----------------------------------
D:--9---------12-----11---9--7--6--9--
A:--9---------x------x----x--x--x--9--
E:------------10-----9----7--5--4-----
B:------------------------------------


Chorus

Don't play last chord when returning to Verse or Fill

B:----------------------------------
F#:----------------------------------
D:--7-----7-----7-----10---9--7--6--
A:--x-----x-----5-----x----x--x--x--
E:--5-----3-----x-----8----7--5--4--
B:--------------3-------------------


Break Down/End

B:-------------------
F#:-4--------2-------
D:--4--------2----1--
A:--4--------2----2--
E:--2-------------2--
B:-------------------
             1

Dave_Matthews_Band_-_Under_the_Table_and

Tuning: B-E-A-D-F#-B

Additional Tabs:

> Standard Tuning

Studio Track

Video Reference

What You Are