1st Part of Jam

Dave used to play all these variations more often in the earlier days.

E:---------------------------------------
B:-8---8----2----------------------------
G:-7---6----2--3--4----------------------
D:-5---x----2--2--x----------------------
A:-7---7-------3--2----------------------
E:-----5--------------0-0-3-0-0-0---11\-- (up and down pick on the 0’s)


E:------------------------------
B:-8---8----2-------------------
G:-7---6----2--3--4--------7/9--
D:-5---x----2--2--x--------x-x--
A:-7---7-------3--2---2\---5/7--
E:-----5------------------------


E:-----------------------------------
B:-8---8----2------------------------
G:-7---6----2--3--4---------14---12--
D:-5---x----2--2--x----------x---x---
A:-7---7-------3--2---2\-0--12---10--
E:-----5-----------------------------


E:---------------------------------
B:-8---8----2----------------------
G:-7---6----2--3--4---\14--12--11--
D:-5---x----2--2--x-----x---x---x--
A:-7---7-------3--2---\12--10---9--
E:-----5---------------------------


2nd Part of Jam

He plays this part while playing with the band only. Play around with these two jam parts with different rhythm and strumming, as does Dave.

E:---11/12----------------------------------
B:---11/12----------------------------------
G:---11/12----9--11----11/12---12---11---9--
D:---10/11----x--x-----x--x----x----x----x--
A:--(11/12)---7--9-----9-/10---10---9----7--
E:------------------------------------------

OR:

E:---11/12--------------------
B:---11/12--------------------
G:---11/12----9---11--12---7--
D:---10/11----x---x---x----x--
A:--(11/12)---7---9---10---5--
E:----------------------------

OR:

E:---11/12-------------------
B:---11/12-------------------
G:---11/12----9---11--9---7--
D:---10/11----x---x---x---x--
A:--(11/12)---7---9---7---5--
E:---------------------------


E:---11/12----x-------
B:---11/12----x---15--
G:---11/12----12--12--
D:---10/11----12--12--
A:--(11/12)-----------
E:--------------------

Dave_Matthews_Band_-_Under_the_Table_and

Tuning

Standard E-A-D-G-B-E

Studio Track

Video Reference

What Would You Say - Jam Variations