Beginning
E:-3-3-3-3-3-3-3-3-3-3-3-3-3-3-3-3--
B:-3-3-3-3-3-3-3-3-3-3-3-3-3-3-3-3--
G:----------------------------------
D:----------------------------------
A:----------------------------------
E:-3---------2----------3------2----


When it gets real high
E:-15-15-15-15-15-15-15-15-15-15-15-15-15--
B:-15-15-15-15-15-15-15-15-15-15-15-15-15--
G:-----------------------------------------
D:-----------------------------------------
A:-----------------------------------------
E:-15---------14----------15------14-------

Dave_Matthews_Band_-_Under_the_Table_and

Tuning

Standard E-A-D-G-B-E

Studio Track

Video Reference

Water into Wine