Dave plays this song on piano. Tim plays the guitar the whole time accompanying Dave, so these tabs are more applicable for Tim's guitar parts but still match up well with what Dave plays on piano.


Intro/Verse Chords
E|-----------
B|--8-8-8-8--
G|--5-5-5-5--
D|--8-7-6-5--
A|-----------
E|-----------


Picked individually
E|----------------------
B|----8----8----8----8--
G|--5----5----5----5----
D|---8----7----6----5---
A|----------------------
E|----------------------


Chorus
    Gm   F    Dm   C
E|---------------------
B|--11---10---10----8--
G|--12---10---10----9--
D|--12---10---12---10--
A|--10----8---12---10--
E|------------10----8--

Dave_Matthews_Band_-_Under_the_Table_and

Tuning

Standard E-A-D-G-B-E

Studio Track

Video Reference

Virginia in the Rain