First Solo

Played after the first chorus. Dave plays the verse once, and Tim comes in with this solo on the second time around.After this they get into the second verse(with vocals).

E:-5-7-8-9--------5-----------------------------------------------------------------------
B:----------5-7-8---8-7-5--------5-7-8-10-8-10-7-10--8-10-7-10--8-10-7-10--8-10-7-10--8^--
G:------------------------7-6--7----------------------------------------------------------
D:----------------------------------------------------------------------------------------
A:----------------------------------------------------------------------------------------
E:----------------------------------------------------------------------------------------


E:---------------------------------------------------------7-9-10/12--
B:-10-8-10-8-7-10-8-10-7-10-8^----7-10-8-7-10-8-7---7-8-10------------
G:------------------------------------------------9-------------------
D:--------------------------------------------------------------------
A:--------------------------------------------------------------------
E:--------------------------------------------------------------------


Second Solo

E:-----------------------------------------------------7-9-10-12-10-12-9-12-10-12--
B:--------------------------------------------8-7-8-10-----------------------------
G:-------------0---2---1-4----6-9---7-11---11--------------------------------------
D:-----2-0-4-5---4---2------7-----9------9-----------------------------------------
A:-0-4-----------------------------------------------------------------------------
E:---------------------------------------------------------------------------------


E:-/14-14-14-14-14-14-14-14-14-14b15-12------------------------------------------------------------
B:---------------------------------------14b15r14-12-----------------------------------------------
G:-----------------------------------------------------14b15r14-12---------------------------------
D:------------------------------------------------------------------14b15r14-12-11-12-11-----------
A:---------------------------------------------------------------------------------------12\-9b-7--
E:-------------------------------------------------------------------------------------------------

Dave_Matthews_Band_-_Under_the_Table_and

Tuning

Standard E-A-D-G-B-E

Studio Track

Video Reference

Tripping Billies - Tim's Storytellers Solo