Easier/Simplified Nature Intro


E:-----------------------
B:-2----0----2--0--------
G:-2----2----2--2----/7--
D:-2----2----2--2-----x--
A:-0----0----0--0-----x--
E:-------------------/7--

or


E:-----------------------
B:-2----0----2--0----/3--
G:-2----2----2--2-----x--
D:-2----2----2--2-----x--
A:-0----0----0--0----/2--
E:-----------------------

Dave_Matthews_Band_-_Under_the_Table_and

Tuning

Standard E-A-D-G-B-E

Studio Track

Video Reference

Tripping Billies - Easier Nature Intro