Nature Intro
E:-------------------------------
B:-------------------------------
G:-6------4------6------4---6/7--
D:-2------2------2------2---x----
A:-x------x------x------x---x----
E:-5------5------5------5---5/7--

Intro
E:----------------------------------------------------------
B:----------------------------------------------------------
G:-2---4----2---4---7---6---2---4----2---4---6---7---2---4--
D:-x---x----x---x---x---x---x---x----x---x---x---x---x---x--
A:-x---x----x---x---x---x---x---x----x---x---x---x---x---x--
E:-2---3----2---3---7---5---2---3----2---3---5---7---2---3--


E:-----------------------------------------
B:-----------------------------------------
G:-2---4---7---6---2---4----2---4---6---7--
D:-x---x---x---x---x---x----x---x---x---x--
A:-x---x---x---x---x---x----x---x---x---x--
E:-2---3---7---5---2---3----2---3---5---7--

Verse
E:--------------------------------
B:---------------------------------
G:----6--4/--0----7------4/5-------
D:----2--2---0----7-------------9--
A:--------------3/5-------------9--
E:-5------------------8~~~~~--5/7--
   3     (2)    (1)   4  (1)  (1)


E:---------------------------
B:---------------------------
G:----6--4/--0----7---2---4--
D:----2--2---0----7---x---x--
A:--------------3/5---x---x--
E:-5------------------2---3--
   3     (2)    (1)

Chorus
E:--------------------------------------------------
B:--------------------------------------------------
G:-7----6----2--4--4/7--6-----7----6----2--4--6--7--
D:-x----x----x--x--x----x-----x----x----x--x--x--x--
A:-x----x----x--x--x----x-----x----x----x--x--x--x--
E:-7----5----2--3--3/7--5-----7----5----2--3--5--7--

Dave_Matthews_Band_-_Under_the_Table_and

Tuning

Standard E-A-D-G-B-E

Studio Track

Video Reference

Tripping Billies