e|------------------------------------|
B|------------------------------------|
G|------------------------------------|
D|--9-9-9-----------------------------|
A|-7-7-7------------------------------|
E|------------------------------------|


Verse/Chorus: Strummed
e|------------------------------------|
B|------------------------------------|
G|------------------------------------|
D|---9----9----9----9-----------------|
A|-7-7----7----7----9-----------------|
E|------5----7----7-------------------|


Jam:
e|------------------------------------|
B|------------------------------------|
G|------------------------------------|
D|---9------------9----9--------------|
A|-7-7------------7----9--------------|
E|------5-4-5-4/7----7----------------|

Dave_Matthews_Band_-_Under_the_Table_and

Tuning

Standard E-A-D-G-B-E

Studio Track

Video Reference

Toy Soldiers