When the band plays, Dave doesn't play.  It is Boyd playing a mandolin.


Intro- mess around with this as song starts out

e ----12-----------|
B ----12-----------|
G -----------------|
D -----------------|
A -----------------|
E -----------------|


Verse- played after each part Dave sings

Divided into 2 parts.


Part I
e -------12------------------|
B -------------10----12------|
G ---------------------------|
D ---------------------------|
A ---------------------------|
E ---------------------------|


Part II
e -----------------------------------------|
B ------10--10-----------------------------|
G --------------12--11--9------------------|
D -------------------------12--10----9-----|
A -----------------------------------------|
E -----------------------------------------|


Chorus

e ---------12--12-------------|
B ---------10--10-------------|
G ----------------------------|
D ----------------------------|
A ----------------------------|
E ----------------------------|

Dave_Matthews_Band_-_Under_the_Table_and

Tuning

Standard E-A-D-G-B-E

Originally by: The Zombies

Studio Track

Video Reference

Time of the Season