Intro: These are all the same rhythm as what Dave plays for the intro.  they are octives of the same riff. 
-----------------------------
-----------------------------
-----------------------------
-----------------------------
-----------------------------
-0---7---3---5-5-2-3-2-0-----

or

-----5-----------------------
--------6--8-8-5-6-5---------
--7------------------7-------
-----------------------------
-----------------------------
-----------------------------

or

-------17---13---15-15-12-13-12-------------
--15---------------------------15-----------
--------------------------------------------
--------------------------------------------
--------------------------------------------
--------------------------------------------

Verse:  Here he likes to play around a little.

----------------------------------------------------
----------------------------------------------------
----------------------------3---------------2~~-----
----------------------------x----5-5-2-3-2----------
----------------------------x-------------5---------
-0---7---3---5-5-2-3-2---5--5-----------------------

--------------------
--------------------
--------------------
------3-0-2---------
--3-1-------3-0-----
--------------------

or

--------------------------------------------------
--------------------------------------------------
----------------------------3--------------2~~----
----------------------------x--------------------etc..
----------------------------x---------------------
-0---7---3---5-5-2-3-2---5--5--5-5-2-3-2-0--------

-----5-----------------------
--------6--8-8-5-6-5---------
--7------------------7-------
-----------------------------
-----------------------------
-----------------------------

Here is the verse for it, but staying high instead of going back low.

-----5---------------------------------------------5-----------------
--------6--8-8-5-6-5----------------8-8-5-6-5------------6-3--5------
--7-------------------7-------3------------------7---5-3--------5-2--
------------------------------X--------------------------------------
------------------------------X--------------------------------------
------------------------------5--------------------------------------

for the part that changed, you can substitute any of the intro riffs that above. 

Chrous:  Took a while on the chords...but they sound pretty good.  they could be off though.   this is the part i updated.  i had a wrong chord, and one that i needed to add to.  these are better now.  for the last two.  you can also use the bar chords for each.  (Dm and C)

---------1------------
---1--1--3--1---------
---2--x--2--0---------
---3--2--0--2---------
---x--3--x--3---------
---3--2--x------------

And the transition back to the verse, exactly the same as dave, just in a different place.

-----------------
-----------------
-----------------
----2---0---3----
--0---3---1------
-----------------

Dave_Matthews_Band_-_Under_the_Table_and

Tuning

Standard E-A-D-G-B-E

Additional Tabs:

> Main Stone Tabs

Studio Track

Video Reference

The Stone - Tim's Parts