Intro/Verse
Hit the 2onE(in the D-chord) with your thumb
E:--------2--
B:--------3--
G:-1-1-1--2--
D:-2-2-2--0--
A:-2-2-2--0--
E:-0-0-0--2---

Chorus
E:------------------------
B:-2-------2------2-------
G:-2-------2------2-------
D:-2-------2--------------
A:-0-------x------x-------
E:-------4-4----2-2----4--
   1     3      1      3

"Look at us spinning..."
E:----------------------          E:----------------------
B:----------------------          B:----------------------
G:----------------------          G:----------------------
D:-9-----7----6---5--4-- x2 then  D:-9-----7----6---5--3--
A:-x-----x----x---x--x--          A:-x-----5----x---x--x--
E:-7-----5----4---3--2--          E:-7-----5----4---3--1--

Dave_Matthews_Band_-_Under_the_Table_and

Tuning

Standard E-A-D-G-B-E

Additional Tabs:

> B Tuning

Studio Track

Video Reference

The Space Between - Standard Tuning