Intro/Verse

B:---------3--
F#:-2-2-2--0--
D:--2-2-2--0--
A:--2-2-2--0--
E:--0-0-0--2--
B:---------3--
    1 1 1


Chorus

B:--2-------2------2-------
F#:-3-------3------3-------
D:--2-------2--------------
A:--0-------x------x-------
E:--------4-4----2-2----4--
B:-------------------------
          4      1      4


"Look at us spinning..."

B:----------------------           B:----------------------
F#:---------------------          F#:----------------------
D:-9-----7----6---5--4--           D:-9-----7----6---5--3--
A:-x-----x----x---x--x-- x2 then   A:-x-----x----x---x--x--
E:-7-----5----4---3--2--           E:-7-----5----4---3--1--
B:----------------------           B:----------------------

Dave_Matthews_Band_-_Under_the_Table_and

Tuning: B-E-A-D-F#-B

Additional Tabs:

> Standard Tuning

Studio Track

Video Reference

The Space Between