Intro / Verse

e|-------------------------------

B|-------------------------------

G|-------------------------------

D|-------------------------------

A|-------------3h0-----4h0---5~--

E|-0h3-5-5-5-5-----5-5-----5-----


Pre-Chorus

e|------------------

B|-----2-----2---2--

G|-----2-----2---2--

D|--4--2--0--2---2--

A|--x--0--2--0---0--

E|--2-----3----3----


Chorus

e|----------2--2----------------2--2-------------

B|----------3--3--3--2----------3--3--3--2-------

G|----------2--2--x--2----------2--2--x--2-------

D|--2---7---0--0--4--2--2---7---0--0--4--2--2----

A|--2---7------4--2--0--2---7------4--2--0--2----

E|--0---5---------x-----0---5---------x-----0--3-


Jam

Variations of this

e|----------

B|----------

G|----------

D|-----(4)--

A|------4---

E|--0h2-2---

Dave_Matthews_Band_-_Under_the_Table_and

Tuning

Standard E-A-D-G-B-E

Studio Track

Video Reference

The Only Thing