​Intro/Verse
e-----------------------
B---------------1----3--
G---------------0----0--
D--5-----(2)-X--2--2/4-- x2
A--5------2--X--3--3/5--
E--3---2--0--X----------
             *
*During the intro Dave sometimes makes this muted stop instead of continuing on the Em (as he does in the verse)

Chorus
e----------------
B----------------
G----------------
D--5--7--9--10--- x2
A--5--7--9--10---
E--3--5--7--8----

Chorus Outro                        Song Ends on G After Last Outro
e--------------------------------   --3--
B----------1~-------1-1---1-1----   --0--
G----------0~---(0)-3-2-0-0-0----   --0--
D--5---3---2~---(0)-3-3-0-3-2-0--   --0--
A--5---3---3~-------------3-3-0--   --2--
E--3---1-------------------------   --3--

Post Second and Third Chorus Outro (Not the First Chorus)
e---------
B--4---3--
G--0---0--
D--5---4--
A--6---5--
E---------

Bridge
e--------------------------------------------------
B--------------------------------------------------
G--------4-5-7---------4-5-------4-5-7-5-4---------
D----5-7---------4-5-7-------5-7-----------7-5-4---
A--3-----------5-----------7---------------------7-
E--------------------------------------------------

e---------------------------------------------------
B---------------------------------------------------
G--------4-5-7---------4-5-------7-5-4--------------
D----5-7---------4-5-7-------5-7-------7-5-4--------
A--3-----------5-----------7-----------------7-5-3--
E---------------------------------------------------

e---------------------------------------------------
B---------------------------------------------------
G--------4-5-7---------4-5-------4-5-4---4-5--------
D----5-7---------4-5-7-------5-7-------7-----7-5-4--
A--3-----------5-----------7------------------------
E---------------------------------------------------

e---------------------------------------------------
B--------------------------------------1-1---1-1----
G--------4-5-7---------4-5-------7-5-4-3-2-0-0-0----
D----5-7---------4-5-7-------5-7-------3-3-0-3-2-0--
A--3-----------5-----------7-----------------3-3-0--
E---------------------------------------------------

Dave_Matthews_Band_-_Under_the_Table_and

Tuning

Standard E-A-D-G-B-E

Studio Track

Video Reference

The Ocean and the Butterfly