Intro

This is played sometimes and often times with variation, play around as you like

E:-----------------------------------------------------------
B:-----------------------------------------------------------
G:-----------------------------------------------------------
D:--------8--9\11--12--11--11\9--8--9--------------9---------
A:-9--10-------------------------------10--9h10p9-----10--9--
E:-----------------------------------------------------------
   2  3   1  (2)   3   2    (2)  1  2  3   2_3_2   2  3   2


Verse

E:----
B:----
G:----
D:-4--
A:-x--
E:-2--


Fill #1

E:-----------------
B:-----------------
G:-----------------
D:-4--5-5/8--5--4--
A:-x--x-x----x--x--
E:-2--3-3/6--3--2--


Fill #2

E:------------------------------------
B:------------------------------------
G:------------------------------------
D:-4--5-5/8--9--8--5--4--5-5/8--5--4--
A:-x--x-x----x--x--x--x--x-x----x--x--
E:-2--3-3/6--7--6--3--2--3-3/6--3--2--


"This is the Last Stop"

E:-------------------
B:-------------------
G:-------------------
D:-12--12--11--9--8--
A:-x---x---x---x--x--
E:-10--10--9---7--6--


"Your so ritgeous..."

E:----
B:----
G:----
D:-2--
A:-2--
E:-0--


"Go ahead believe that you..."

E:-----------------------------------------------
B:-----------------------------------------------
G:-----------------------------------------------
D:-4--5-5/8--9--8--9--11--12--11--9--8---5/8--4--
A:-x--x-x----x--x--x--x---x---x---x--x---x----x--
E:-2--3-3/6--7--6--7--9---10--9---7--6---3/6--2--


"Heeeeeey, your always..."

E:-----------------
B:-----------------
G:-11-----6-----4-- <---2
D:-x------x-----x--
A:-x------x-----x--
E:-10-----5-----4-- <---1


Outro

Form a normal G-Chord 1 fret lower

E:---2----2----------2--
B:---2----2----------2--
G:---x----x-------------
D:---x----x-------------
A:-2-2--1-1----------1--
E:--------------1--2-2--
   2    1       1  2

Outro Reprise (Tim and/or Bela)

Pick each note quickly over and over

E:-/19----18----13----14--or---/7-----6-----1------2--
B:----------------------------------------------------
G:----------------------------------------------------
D:----------------------------------------------------
A:----------------------------------------------------
E:----------------------------------------------------

Dave_Matthews_Band_-_Under_the_Table_and

Tuning

Standard E-A-D-G-B-E

Additional Tabs:

> Drop Half Step Tuning

Studio Track

Video Reference

The Last Stop - Standard Tuning