Intro

E:-----0h2-----2-------0h2------2--
B:----------0---------------0------
G:-2---------------2---------------
D:---------------------------------
A:---------------------------------
E:---------------------------------
   2   (3)     3   2   (3)      2


Verse

E:-1-----1-----0-----0--
B:-3-----3-----1-----1--
G:-2-----3-----0-----2--
D:-0-----3-----2-----2--
A:-------1-----3-----0--
E:----------------------


Fill

This is played in between verses

E:----------------
B:-6-------6-5-6-- <---2on6(1on5)
G:-7-------7-7-7-- <---4
D:-7-------7-7-7-- <---3
A:----------------
E:----------------


Chorus

E:-0-----3-----1-----2--
B:-2-----0-----1-----3--
G:-2-----0-----2-----2--
D:-2-----0-----3-----0--
A:-0-----2-----3--------
E:-------3-----1--------


Chorus Ends On

E:-0----0--
B:-1----2--
G:-0----2--
D:-2----2--
A:-3----0--
E:---------

Dave_Matthews_Band_-_Under_the_Table_and

Tuning

Standard E-A-D-G-B-E

Studio Track

Video Reference

The Dreaming Tree