Chorus/End

-9---9----12----12----12----9----9-----12----12----12------
--10--10----14----14----14---10---10-----14----14----14----
----9---9-----14----14----14---11---11-----14----14----14--
-----------------------------------------------------------
-----------------------------------------------------------
-----------------------------------------------------------


-10---10-----12----12----12------7---7------
---10---10-----14----14----14-----9---9-----
-----11---11-----14----14----14----9--------
--------------------------------------------
--------------------------------------------
--------------------------------------------

each new little chord lines up with each chord of dave's part in the chorus.

Dave_Matthews_Band_-_Under_the_Table_and

Tuning

Standard E-A-D-G-B-E

Additional Tabs:

> Main Tabs

Studio Track

Video Reference

The Best of What's Around - Tim Fill