Avoid hitting the A and low E strings.
This sounds more like a ukulele then it would without the use of a capo.

Verse:

E|--3---3---0---3---
B|--1---1---1---0---
G|--2---0---2---0---
D|--3---2---2---0---
A|------------------
E|------------------


Chorus:

E|--1---1---0---3---
B|--3---1---1---0---
G|--2---2---0---0---
D|--0---3---2---0---
A|------------------
E|------------------


Breakdown ("Cover me, cover me"):

E|--3--3--3---3---
B|--1--1--1---1---
G|--2--2--2---0---
D|--3--3--2---2---
A|----------------
E|----------------

Dave_Matthews_Band_-_Under_the_Table_and

Tuning: Standard

E-A-D-G-B-E

Capo: 3rd Fret

Comment: Dave plays on ukulele

Studio Track

Video Reference

Sweet - Capo