Verse:

G#  D#  Cm  A#

E:------------------
B:--4---8---4---3---
G:--5---8---5---3---
D:--6---8---5---3---
A:--6---6---3---1---
D:------------------


Chorus:

Fm   G#   D#  A#

E:-------------------
B:-9----9----8---6---
G:-10---8----8---7---
D:-10---10---8---8---
A:-8----11---6---8---
D:-------------------


Breakdown ("Cover me, cover me"):

G# -  -  D#                 A#

E:-------------              -----
B:-4--4--4--8--              --6--
G:-5--5--5--8-- x3 then last --7--
D:-6--6--6--8--    time play --8--
A:-6--6--6--6--              --8--
D:-------------              -----

Dave_Matthews_Band_-_Under_the_Table_and

Tuning: Standard

E-A-D-G-B-E

Comment: Dave plays on ukulele

Studio Track

Video Reference

Sweet