Verse/Chorus:

e-----------------------------------|
b-----------------------------------|
g---2/3-----0---------2-----2/3---3-|
d---------1-------0-----------------|
a-------3-------1---------------1---|
E-1-----------3-----1-----1---------|

or

e-------------------------------------|
b-------------------------------------|
g---2/3-----0---------2-----2/3-----3-|
d---------1-------0---------------0---|
a-------3-------1---------------1-----|
E-1-----------3-----1-----1-----------|


Pre-chorus ("funny to think.."):

e-------------------------|
b-------------------------|
g---2h3---3-----3-----3-2-|
d-------------------------|
a-------1---1-------------|
E-1-----------3---3-1-----|

Dave_Matthews_Band_-_Under_the_Table_and

Tuning

Standard E-A-D-G-B-E

Studio Track

Video Reference

Stolen Away on 55th & 3rd