Verse

E:--(2)---(2)-----(5)---(3)---(2)----(2)---------------
B:---3-----3-------5-----3-----3------3------3------3--
G:---4-----2-------6-----4-----2------2------x------x--
D:---4-----4---4/7-7---5-5---4-4---0--0---2--2------2--
A:-2-2---5-5-------------------------------------4--4--
E:-----------------------------------------------------
   1     4     (3)     3     3            1      3

E:--(2)---(2)-----(5)---(3)----5--
B:---3-----3-------5-----3-----x--
G:---4-----2-------6-----4-----2--
D:---4-----4---4/7-7---5-5---4-4--
A:-2-2---5-5----------------------
E:--------------------------------
   1     4     (3)     3     3


"Stay or Leave"

E:-0-----3-----2--------

B:-0-----0-----3-----2--
G:-0-----0-----2-----2--
D:-2-----0-----0-----2--
A:-2-----2-----------4--
E:-0-----3--------------


"So What to do..."

The 7 with the star isn't played by Timmy, but you need it to sound like Dave

E:---(4)----(3)---(2)------------(4)--(4)---2------------------(4)----(3)--
B:----5------3-----3------2-------5----5----3------2----2-------5------3---
G:----4------4-----2------2-------4----4----2------2----2-------4------4---
D:-/6-6----5-5---0-0------2----/6-6----6--0-0------2----2----/6-6----5-5---
A:----------------------4-4----------------------4-4----0------------------
E:-----------------------------------7-------------------------------------
    3      3            3      3     4*          3            3      3


Lead Into "Remember we used to..."

E:--(2)---(2)-----(5)-
B:---3-----3-------5--
G:---4-----2-------6--
D:---4-----4---4/7-7--
A:-2-2---5-5----------
E:--------------------
   1     4     (3)


"Remember we used to..."

E:---3-----0--------------
B:---3-----0-----6-----5--
G:---4-----0-----x-----x--
D:---5-----2-----x-----2--
A:---5-----2---5-5---4-4--
E:-3-3-----0--------------
   1           3     3

or

E:---3-----0--------------
B:---3-----0--------------
G:---4-----0-----7-----6--
D:---5-----2-----7-----7--
A:---5-----2---5-5---4-4--
E:-3-3-----0--------------
   1           1     1


"What day is this..."

He sings "What day is this" twice but you play this once through

Any chords that are different can be exchanged for each other at any time

E:-0--------------(4)---0------------
B:-0----3----2-----5----0----3----2--
G:-0----0----2-----4----0----0----2--
D:-2----0----2---6-6----2----0----2--
A:-2----2---------------2----2-------
E:-0----3---------------0----3-------
                 3
or

E:-0---------5-----(4)---0---------5--
B:-0----3----2------5----0----3----2--
G:-0----2----2------4----0----2----2--
D:-2----0----2---/6-6----2----0----2--
A:-2---------------------2------------
E:-0---------------------0------------

Dave_Matthews_Band_-_Under_the_Table_and

Tuning

Standard E-A-D-G-B-E

Studio Track

Video Reference

Stay or Leave - Standard Tuning