Intro

E:-------------------------------
B:-------------------------------
G:-10\---10---8---7---8---7---8-- <---finger 4(1on 1st 8)
D:-8-\---8----8---5---5---6---6-- <---finger 1
A:-x-----x----x---x---x---x---x--
E:-x-----x----x---x---x---x---x--


Verse

E:----------------------------------
B:----------------------------------
G:-10---x---10---8---7---8---7---8-- <---finger 4(1on 1st 8)
D:-8----x---8----8---5---5---6---6-- <---finger 1
A:-x----x---x----x---x---x---x---x--
E:-x----x---x----x---x---x---x---x--


E:-----------------------------------------
B:-----------------------------------------
G:-7----10----7----5----7----10----7-------
D:-8----8-----8----5----8----8-----8----3--
A:-6----8-----6----3----6----8-----6----3--
E:--------------------------------------1--


Transition

E:---------------------------------------------
B:---------------------------------------------
G:---------------------------------------------
D:-----8-----8--------------x--x-x----x--x--x--
A:--------7-----7-----------10-x-10---6--7--8--
E:-6---------------6--7--8-----8---------------
   1   3  2  3  2  1  1  1  3  1 3    1  1  1

Dave_Matthews_Band_-_Under_the_Table_and

Tuning

Standard E-A-D-G-B-E

Additional Tabs:

> Tim's Part

Studio Track

Video Reference

Stay (Wasting Time)