Intro/Main Riff:

e--------------------|
b--------------------|
g--------------------|
d----5-3-2-0-------0-|
a------------3-5-3-5-|
E-3------------------|

Verse:

e---------------------|
b---------------------|
g---4----5----6----5--|
d---------------------|
a---------------------|
E-3----3----3----3----|

Bridge:

e----------------------|-----|------|
b----------------------|-----|------|
g-8--7-8-7-5-7-5-3--5--|--3--|-4--7-|
d----------------------|-----|------|
a-6--5-6-5-3-5-3-1--3--|--1--|-2--5-|
E----------------------|-----|-3--6-|

Dave_Matthews_Band_-_Under_the_Table_and

Tuning

Standard E-A-D-G-B-E

Studio Track

Video Reference

Stand Up