Verse

E:----------------------------------------------------------------------------
B:-------2/4--2/4--2----2(h4p2)--2--------------------------------------------
G:-------2/4--2/4--2----2--------2--4------4----------------------------------
D:----------------------------------6------6---------5------5/7---------7-----
A:-2----------------------------------------------2-----2---2/4------4-----4--
E:--------------------------------------0------3------------3/5---5-----------
   2     (1)  (1)  1    1__3_1   1             2  1  4  1         2  1  4  1


Chorus

E:-------------------------------------------------
B:-------------------------------------------------
G:-------------------------------------------------
D:--------7----------------------------------------
A:-----9----------------9-------7-------5----------
E:-10----------9-----7-------5-------3-------5-----
   3   2  1    2     1  4    1  4    1  4    1  4

E:-----------------------------------------
B:-----------------------------------------
G:-----------------------------------------
D:--------7--------------------------------
A:-----9----------------9-------7-------5--
E:-10----------9-----7-------5-------3-----
   3   2  1    2     1  4    1  4    1  4


Live Chorus Ending

B:-----------------
G:-----------------
D:----5---------7--
A:----2---------4--
E:-3--3------5--5--
   2         2


E:-------
B:-------
G:-------
D:----5--
A:----2--
E:-3--3--
   2

Dave_Matthews_Band_-_Under_the_Table_and

Tuning

Standard E-A-D-G-B-E

Studio Track

Video Reference

Some Devil - Standard Tuning