Verse

B:--------------------------------------------------------------------------
F#:-------7/9--7/9--7----7(h9p7)--7--5------5---------1---------------3-----
D:--------7/9--7/9--7----7(h9p7)--7--6------6---------0---------------0-----
A:-------------------------------------------------2-----2---------4-----4--
E:---------------------------------------0------3------------3/5------------
B:--0-----------------------------------------------------------------------
          (1)  (1)  1    1__3_1   1             3  2  1  2   (3)   2  1  2


Chorus

B:--------------------------------------------------
F#:-------------------------------------------------
D:---------7----------------------------------------
A:------9----------------9-------7-------5-------7--
E:--10----------9-----7-------5-------3-------5-----
B:--------------------------------------------------
    3   2  1    2     1  4    1  4    1  4    1  4

B:------------------------------------------
F#:-----------------------------------------
D:---------7--------------------------------
A:------9----------------9-------7-------5--
E:--10----------9-----7-------5-------3-----
B:------------------------------------------
    3   2  1    2     1  4    1  4    1  4


Live Chorus Ending

B:------------------
F#:----1---------3--
D:-----0---------0--
A:-----2---------4--
E:--3--3------5--5--
B:------------------
    3         3


B:--------
F#:----1--
D:-----0--
A:-----2--
E:--3--3--
B:--------
    3

Dave_Matthews_Band_-_Under_the_Table_and

Tuning: Baritone

B-E-A-D-F#-B

Studio Track

Video Reference

Some Devil