Intro/Verse

Mutes can be played as 2th fret on A string to add some depth

E:--------------------------------------------------
B:-2h3--3--2--3--2--3-------------------------------
G:-2h4--4--2--4--2--4--x-x-x-x----4h6---4h6---4h6/--
D:---------------------x-x-x-x----x-----x-----x-----
A:---------------------x-x-x-x----2-----2-----2-----
E:--------------------------------------------------
                                  (4)   (4)   (_4_)


"Your love is So Right..."

E:-(5)-----(10)-----2-----------------
B:--3-------8-------3-----------------
G:--x-------x-------4-----------------
D:--4-------9-------4-----4----5---7--
A:--5-------10------2-----x----x---x--
E:------------------------2----3---5--

or

E:-------------------------------
B:-------------------------------
G:--7-----------4----------------
D:--7-----5-----4-----4----5--7--
A:--5-----5-----2-----4----5--x--
E:--------3-----------2----3--5--


"I'm going crazy..."

Last chord is A chord past 12th fret

E:-0-----2------------
B:-0-----2-----2--14--
G:-0-----2-----2--14--
D:-2-----4-----2--14--
A:-2-----4-----0------
E:-0-----2------------
               1  1


Outro

E:---------------------5-------------------------10--
B:-2h3--3--2--3--2--3--3----2h3--3--2--3--2--3---8---
G:-2h4--4--2--4--2--4--x----2h4--4--2--4--2--4---x---
D:---------------------4-------------------------9---
A:---------------------5-------------------------10--
E:---------------------------------------------------


E:---------------------2--------------------------------------
B:-2h3--3--2--3--2--3--3-----2h3--3--2--3--2--3---------------
G:-2h4--4--2--4--2--4--4-----2h4--4--2--4--2--4---------------
D:---------------------4---------------------------4----5--7--
A:---------------------2---------------------------x----x--x--
E:-------------------------------------------------2----3--5--

Dave_Matthews_Band_-_Under_the_Table_and

Tuning

Standard E-A-D-G-B-E

Additional Tabs:

> B Tuning

Studio Track

Video Reference

So Right - Standard Tuning