When dave does this:
-----------------------------------
-----------------------------------
-----------------------------------
-----------------------------------
-----------------------------------
--0--8\----------------------------

Tim does this:
-----------------------------------
-------------------8--10~~---------
-----------------------------------
----5--7~~---or--------------------
-----------------------------------
-----------------------------------

This is for the verse:
-------5---1----5-5-3------------------
-------5---1----6-5-3------------------
-------5---2----7-7-4------------------
-----------3----7-7-5------------------
-----------3---/5-5-5------------------
--/5-------1--------3------------------

Dave_Matthews_Band_-_Under_the_Table_and

Tuning

Standard E-A-D-G-B-E

Additional Tabs:

> Main Tabs

Common Segue:

> Anyone Seen the Bridge

Studio Track

Video Reference

So Much to Say - Tim Fills