Verse:

e--------------------|--------------------|
b--------------------|--------------------|
g--------------------|--------------------|
d--------2-2h4---2-2-|--------2-2h4---2-4-|
a--(4)-4-------4-----|--(4)-4-------4-----|
E-x------------------|-x------------------|

e--------------------|--------------|
b--------------------|--------------|
g--------------------|--------------|
d--------2-2h4---2-0-|---2--2-0-----|
a--(4)-4-------4-----|---2------2-0-|
E-x------------------|---0----------|


Chorus:

e-----|-----|
b-----|-----|
g--2--|--0--|
d--2--|--0--|
a--0--|--2--|
E-----|--3--|

Dave_Matthews_Band_-_Under_the_Table_and

Tuning

Standard E-A-D-G-B-E

Studio Track

Video Reference

Smooth Rider