Note: Dave fingerpicks this song.


Intro / Main Riff

e|-----------------------(3)--

B|-------------------1----0---

G|---0---2---0---0---0----0---

D|---2--(0)-(0)-(0)--2--------

A|--(2)----------2---3----2---

E|---0---2---3------------3---


Verse / Chorus

e|-----------------------(3)--|-----------------------(3)-------

B|-------------------1----0---|-------------------1----0----0---

G|---0---2---0---0---0----0---|---0---2---0---0---0----0----0---

D|---2--(0)-(0)-(0)--2--------|---2--(0)-(0)-(0)--2------------- x2

A|--(2)----------2---3----2---|--(2)----------2---3---(2)-------

E|---0---2---3------------3---|---0---2---3------------3----2---

                                                            *


* Alternate Chord in Verse/Chorus

(Dave plays it this way sometimes, usually before going into the bridge)

e|-----

B|--3--

G|--2--

D|--0--

A|-----

E|-----


Bridge

e|----------------------------------------------------

B|---0---0---0-------------1----1-------1----1---(0)--

G|---0---0---0-----------------------------------(0)--

D|-------------------------2----2-------2----2--------

A|--(2)-----(2)---(2)---2--3----3----2--0----0--------

E|---3---2---0-----0------------------------------3---

Notes in bold should be emphasized.

Dave_Matthews_Band_-_Under_the_Table_and

Tuning

Standard E-A-D-G-B-E

*Capo: 4th Fret

These tabs are relative to capo.

Studio Track

Video Reference

Singing from the Windows