Solo
e|------------------------------------------------|
B|------------------------------------------------|
G|-14-14-12----12------------------------------12-|
D|----------14---14-12-------------12-12-14-14----| X2
A|---------------------14-12-14-14----------------|
D|------------------------------------------------|


e|----------------------------------|
B|----------------------------------|
G|-12-12-9---9----------------------| X2
D|--------12--12-9------------------|
A|-----------------12-10-12-12b-12b-|
D|----------------------------------|


e|------------------------------------------------|
B|------------------------------------------------|
G|-14-14-12----12------------------------------12-|
D|----------14---14-12-------------12-12-14-14----| X2
A|---------------------14-12-14-14----------------|
D|------------------------------------------------|


e|-------------------------------------------------------------------|
B|---------------------------------------------10-12-13--13--13--13--|
G|-12-14-12----12------------------------------12-14-15b-15b-15b-15b-|
D|----------14---14-12-------------12-12-14-14-----------------------|
A|---------------------14-12-14-14-----------------------------------|
D|-------------------------------------------------------------------|

Dave_Matthews_Band_-_Under_the_Table_and

Tuning

Standard E-A-D-G-B-E

Additional Tabs:

> Main Seven Tabs

Studio Track

Video Reference

Seven - Tim's Album Solo