Intro riff (4/4):
e----------------------------------------------|
b----------------------------------------------|
g----------------------------------------------|
d--5--5--8-7--5--5--8-7--5--5--8-7--5--5--8-7--|
a--5--5--8-7--5--5--8-7--5--5--8-7--5--5--8-7--|
D----------------------------------------------|


Verse (repeat each measure twice) (7/8):
e-----------------|-----------------|
b-----------------|-----------------|
g-----------------|-----------------|
d------5p0--------|------5p0--------|
a-----------2-3-5-|-----------2-3-5-|
D--5-5------------|--3-3------------|

e-----------------|-----------------|
b-----------------|-----------------|
g-----------------|-----------------|
d------5p0--------|------5p0--------|
a-----------2-3-5-|-----------2-3-5-|
D--2-2------------|--5-5------------|

e-----------------|-----------------|
b-----------------|-----------------|
g-----------------|-----------------|
d------5p0--------|------5p0--------|
a-----------2-3-5-|-----------2-3-5-|
D--5-5------------|--3-3------------|

e-----------------|-----------------|
b-----------------|-----------------|
g-----------------|-----------------|
d------5p0--------|------5p0--------|
a-----------2-3-5-|--3-3------2-3-5-|
D--2-2------------|-----------------|
                   *****************
*Play this measure during the "Dark little place" part after playing intro riff 

Pre-Chorus (4/4):
e------------------|------------------|
b------------------|------------------|
g------------------|------------------|
d--5-5-5-5-5-5-5-5-|-5-5-5-5-5-5-5-5--|
a--5-5-5-5-5-5-5-5-|-5-5-5-5-5-5-5-5--|
D------------------|------------------|

Chorus (5/8):
e----------------|--------------|
b----------------|--------------|
g----------------|--------2h3-4-|
d--------5p0-5p0-|--------------|
a----------------|--------------|
D--5-5-5---------|--3-3-3-------|

e----------------|--------------|
b----------------|--------------|
g----------------|--------4h5-4-|
d--------5p0-5p0-|--------------|
a----------------|--------------|
D--5-5-5---------|--3-3-3-------|
                    +
+End here last time through chorus

Dave_Matthews_Band_-_Under_the_Table_and

Tuning

Standard E-A-D-G-B-E

Additional Tabs:

> Tim's Album Solo

Studio Track

Video Reference

Seven