Main Riff
----------------------------------
----------------------------------
--0h2p0--0---4--0------0-----0----
-----------2---------2------------
-------------------3-------2------
-------------------------3--------


Break
------------------------------
------------------------------
--4-----7--------5/4----------
----(5)-------7-------5--2/5--
-----------5------------------
------------------------------

Dave_Matthews_Band_-_Under_the_Table_and

Tuning

Standard E-A-D-G-B-E

Studio Track

Video Reference

Round and Round