Verse

E:-------------------------------------------------------
B:-------------------------------------------------------
G:---------3------------------------x-----9--------------
D:-3/5----------------5----------7--x-----------10--(0)--
A:------5-----5\6--------6\8--------x--------------------
E:-----------------6----------8-----x--8-----6-----------
   (3)  2  1  (3)  2  1  (3)  2  1     2  4  1  4


Chorus

E:----------------
B:----------------
G:---------------- 
D:-5---5---3---5--   <---4on5
A:-x---3---1---x--
E:-3-----------5--   <---3on5

Dave_Matthews_Band_-_Under_the_Table_and

Tuning

Standard E-A-D-G-B-E

Studio Track

Video Reference

Rhyme & Reason