This song has no guitar, just keyboard


Intro:
E|-------------------------- 
B|--------------------------
G|--5--3--------------------
D|--5--3--6-----------------
A|--3--1--6-----------------
E|--------4-----------------


"When we..."
E|-------------------------- 
B|---4--4--4--4--4----------
G|---3--3--3--3--3----------
D|---1--1--1--1--1----------
A|---x--x-----x-------------
E|---3--4-----3-------------

Dave_Matthews_Band_-_Under_the_Table_and

Tuning

Standard E-A-D-G-B-E

Studio Track

Video Reference

People, People