Intro

E:----------------------
B:----------------------
G:-11----11-----6------4
D:-7-----7------x------x
A:-9-----9------4------2
E:-10----10----/5----5\3
              (2)    (2)


Verse

E:---------------------0----3----3--------------3--
B:-8----8----7----3----0----3----3----2----3----3--
G:-x----x----x----x----x----x----2----2----2----0--
D:-5----x----4----4----2----2----2----2----x----0--
A:-7----7----5----5----2----2--------------x----2--
E:------5---------3------------------------2----3--


Ending

E:--------------2--
B:--------------3--
G:--6-----4-----2--
D:--x-----x-----0--
A:--4-----2--------
E:-/5-----3--------
  (2)

Dave_Matthews_Band_-_Under_the_Table_and

Tuning

Standard E-A-D-G-B-E

Common Segue:

> Rapunzel

Studio Track

Video Reference

Pantala Naga Pampa