Dave plays on piano

Intro:
e--------------|
b--------------|
g--2--2--2--2--|
d--------------|
a--------------|
E--------------|


Verse:
e----------------|---------------|
b----------------|---------------|
g---2--2---2--2--|---2--2--2--2--|
d--------0-------|---------------|
a-3--------------|-0-------------|
E----------------|---------------|


Pre-chorus:
e---------------|---------------|
b---------------|---------------|
g---2--2--2--2--|---2--2--2--2--|
d-2-------------|-3-------------|
a---------------|---------------|
E---------------|---------------|

e---------------|---------------|
b---------------|---------------|
g---2--2--2--2--|---2--2--2--2--|
d-0-------------|---------------|
a---------------|---------------|
E---------------|---------------|


Chorus:
e---------------|---------------|
b-2-------------|-3-------------|
g---2--2--2--2--|---2--2--2--2--|
d-2-------------|-0-------------|
a---------------|---------------|
E---------------|---------------|

e---------------|---------------|
b-2-------------|---------------|
g---2--2--2--2--|---2--2--2--2--|
d---------------|---------------|
a-0-------------|---------------|
E---------------|---------------|

Dave_Matthews_Band_-_Under_the_Table_and

Tuning

Standard E-A-D-G-B-E

Studio Track

Video Reference

Out of My Hands