Intro/Verse (pizzicato violin tabbed for guitar):
e-------------------|---------------------|
b-3-3-3-3-5-5-5-3-3-|-3-3-3-3-3-3-3-3-3-3-|
g-0-2-4-0-5-5-5-4-2-|-4-4-4-2-0-2-2-2-0-2-|
d-------------------|---------------------|
a-------------------|---------------------|
E-------------------|---------------------|


Verse (bass):
g---2-4-----|------------|
d-5---------|--------5---|
a-------5-3-|----3-5-----|
e-----------|----------3-|


Verse:
Randomly Strum:
e--3-----|
b--3--5--|
g--4--5--|
d--5--5--|
a--------|
E--------|


"Scream and shout" part:
e--3--|--3--|
b--4--|--3--|
g--5--|--4--|
d--5--|--5--|
a--3--|-----|
E-----|-----|


Bridge:
e------------3----------------------------|
b--1----4----0----3----1----1----4----3---|
g--0----X----0----3----2----0----X----X---|
d--2----1----0----3----2----2----5----4---|
a--3----3----2----1----0----3----6----5---|
E------------3----------------------------|

Dave_Matthews_Band_-_Under_the_Table_and

Tuning

Standard E-A-D-G-B-E

Studio Track

Video Reference

Old Dirt Hill (Bring That Beat Back)