Intro/Verse

E:----------------------5------------------------------------ <---1on5
B:---------9--------------------------7----------------------
G:---------9---------6--7-------------7------7h9p7----------- <---3on7
D:----(9)-------6/7----------7-----7----------------9-----7--
A:-7----------------------------5---------5------------9-----
E:-----------------------------------------------------------
   1   3   3    (3)  2       3  1  3  3   1  1_3_1  3  2  1


Chorus

E:-------------------------------
B:-10--10----7------10--10----9--
G:-9---9-----6------9---9-----9--
D:-7---7-----4------7---7-----9--
A:----------------------------7--
E:-------------------------------

Breakdown

The first chord can be played as a normal D chord if easier

E:-2------2--
B:-3------3--
G:-2------4--
D:-4------4--
A:-5------2--
E:-----------


Outro

This part is REALLY hard to transition too. Take out the high E and use your 3rd finger on 5's

E:----------------------5-------
B:---------9--------------------
G:---------9---------6--7----7--
D:----(9)-------6/7-------------
A:-7----------------------------
E:------------------------------
  1    3   3    (3)  2       3

E:-------(5)---------(5)-----------------(5)---------(5)----------- <---3on5
B:--------3-----------3-------------------3-----------3------------ <---1on3
G:----6-----------6-----------6-------6-----------6-----------6----
D:-5-----------5-----------5-------4-----------4-----------4-------
A:-----------------------------------------------------------------
E:-----------------------------------------------------------------
   2  4        2  4        2  4    2  4        2  4        2  4

E:-------(5)---------(5)--------------- <---3on5
B:--------3-----------3------------10-- <---1on3
G:----6-----------6-----------6----9---
D:-3-----------3-----------3-------7---
A:-------------------------------------
E:-------------------------------------
   1  4        1  4        1  4

Dave_Matthews_Band_-_Under_the_Table_and

Tuning

Standard E-A-D-G-B-E

Additional Tabs:

> Raised B Tuning

Studio Track

Video Reference

Oh - Standard Tuning