Verse
E:---3------2------0------3--
B:---0------3------1------0--
G:---0------4------0------0--
D:---0------4------2------0--
A:---2----2-2----3-3------2--
E:-3-3------------------3-3--
   3      1      3      3


Breakdown
E:------1----0----3--
B:-3----1----1----0--
G:-3----2----0----0--
D:-3----3----2----0--
A:-1----3----3----2--
E:------1---------3--


E:------1----0-------
B:-3----1----1----3--
G:-3----2----0----0--
D:-3----3----2----4--
A:-1----3----3----5--
E:------1------------

Dave_Matthews_Band_-_Under_the_Table_and

Tuning

Standard E-A-D-G-B-E

Originally by: Bob Dylan

Studio Track

Video Reference

Oh, Sister