Intro

e|---------------------------------------------------

B|---------------------------------------------------

G|---------------------------------------------------

D|--7------------7------------7-------6-7-6----------

A|----8-7-7-7------8-7-7-7------8-7-8-------8-7-7-7--

E|-----(0)----------(0)----------------------(0)-----


Verse

e|—-----|---------------------------------------------------

B|—-----|---------------------------------------------------

G|--9---|---------------------------------------------------

D|--x---|--7------------7------------7-------6-7-6----------

A|--7---|-----8-7-7-7------8-7-7-7------8-7-8-------8-7-7-7-

E|------|------(0)----------(0)----------------------(0)----


Pre-Chorus

e|—----------

B|—----------

G|--7----6---

D|--X----x--- x2

A|--5----4---

E|--x----x---


Chorus

*Dave does not play during the chorus

e|—--------------------

B|—-2----2----2--------

G|--2----2----2--------

D|--2----2----2--------

A|---------------------

E|----3----3----3-2-3--


Chorus Outro/Bridge

e|—-----------------------------------------------------------

B|—-----------------------------------------------------------

G|—---------------------------------------------------7-------

D|—--------9-------------9-10-----------9---------------9-10--

A|-—--9-10---10-9---9-10-----------9-10---10-9---9-10---------

E|--7-—-----------7--------------7-------------7--------------

e|—----------------------------------------------

B|—----------------------------------------------

G|—----------------------------------------------

D|—--------9-------------9-10-7-9----7-----------

A|-—--9-10---10-9---9-10----------10---8-10-7-8--

E|--7-—-----------7------------------------------

e|---------------------------------------------------

B|---------------------------------------------------

G|---------------------------------------------------

D|--7------------7------------7-------6-7-6----------

A|----8-7-7-7------8-7-7-7------8-7-8-------8-7-7-7--

E|-----(0)----------(0)----------------------(0)-----


End with this

e|—-------

B|—----2--

G|-----2--

D|-----2--

A|--------

E|--3-----

Dave_Matthews_Band_-_Under_the_Table_and

Tuning

Standard E-A-D-G-B-E

Studio Track

Video Reference

Madman's Eyes