Whole Song

E:------------------------------------------------------
B:------------------------------------------------------
G:----0-2-0-2-0-2-0-2-0---0------0-2-0-2-0-2-0-2-0---0--
D:-0--------------------4-----2--------------------2----
A:------------------------------------------------------
E:------------------------------------------------------
        1   1   1   1   3     1    1   1   1   1   1


Outro
As played at Benoyara(10/24/02)
E:-----------------0--
B:-3----3----3-----3--
G:-2----x----x-----2--
D:-4----2----2-----0--
A:-----------4--------
E:--------------------

Dave_Matthews_Band_-_Under_the_Table_and

Tuning

Standard E-A-D-G-B-E

Studio Track

Video Reference

Loving Wings