Intro/Verse
E-----------------
B-----------------
G---11---------4--
D---10---------5--
A---9----------6--
E-8-8--------7-7--
  1          4


Chorus
E---------------------------------
B---------------------------------
G-11------11------11------7----7-- <---4(3on7)
D-9-------9-------x-------x----x-- <---2
A-10------10------9-------x----x-- <---3(2on9)
E-0-------8-------10------7----6-- <---1on 8&6(3on10, 2on7)

Dave_Matthews_Band_-_Under_the_Table_and

Tuning

Standard E-A-D-G-B-E

Studio Track

Video Reference

Little Thing