Dave plays this in a different tuning.

These tabs are for standard tuning.
Play any variations of these chords that you feel sounds best.

Verse:

    Em   D   C  Bm
E|-------2------------|
B|---0---3---1---3----|
G|---0---2---0---4----|
D|---2---0---2---4----|
A|---2-------3---2----|
E|---0----------------|


Chorus:

G   D   C   C
E|---3---2------------|
B|---0---3---1---1----|
G|---0---2---0---0----|
D|---0---0---2---2----|
A|---2-------3---3----|
E|---3----------------|

Dave_Matthews_Band_-_Under_the_Table_and

Tuning

Standard E-A-D-G-B-E

Originally by: Neil Young

Studio Track

Video Reference

Like a Hurricane