solo

Electric with distortion.

E:-----------------------------------------------------------------------------------
B:-------------------------------14-17p15p14-14h15-15--15p14-----15h17--17---17-17^--
G:-11-12-14-----12-11-14-14----------------------------------------------------------
D:-----------------------------------------------------------------------------------
A:-----------------------------------------------------------------------------------
E:-----------------------------------------------------------------------------------

cont

E:---------------------------15^-----14-15-14^-^-----------------------------

B:-15-17^--17p15-15-15h17---------------------------15^-^-^-^-^-^-^----------
G:---------------------------------------------------------------------------
D:---------------------------------------------------------------------------
A:---------------------------------------------------------------------------
E:---------------------------------------------------------------------------

cont

E:---------------------------------------------------------------------------------------
B:-^17-17-17-17-17-17-17-17-17-17p15-15-15-15-17^-^17-17-17-17-17-17^-17^-17^v-17^-17^v--
G:---------------------------------------------------------------------------------------
D:---------------------------------------------------------------------------------------
A:---------------------------------------------------------------------------------------
E:---------------------------------------------------------------------------------------

cont

Play extremely fast. It is not 1,4,1,4,1,5,1,7. It is 14,14,15,17,etc.

E:-----14h17p14--1414----1417-----14----1417--14----1417--14----1417--14------     
B:-1517--------17----1517-----------1517----15--1517----15--1517----17--1517--
G:----------------------------------------------------------------------------
D:----------------------------------------------------------------------------
A:----------------------------------------------------------------------------
E:----------------------------------------------------------------------------

cont

E:-1418--14----1418--14----1418--14----1418--14----1418--14----1418--14----1418--14------
B:-----17--1517----17--1517----17--1517----17--1517----17--1517----17--1517----17--1517--
G:---------------------------------------------------------------------------------------
D:---------------------------------------------------------------------------------------
A:---------------------------------------------------------------------------------------
E:---------------------------------------------------------------------------------------

cont

E:-1418--14----1418--14----1418--1417^v--17^v17^--17-14------
B:-----17--1517----17--1517----17-----------------------17^--
G:-----------------------------------------------------------
D:-----------------------------------------------------------
A:-----------------------------------------------------------
E:-----------------------------------------------------------

cont

For authentic sound, use a delay pedal here.

E:-12---------------------12-----------------------------------------------------------10--10-12^--
B:---15p12------------------15p12--------------------------13^--10------------10--10h12--12--------
G:--------14p12------------------14p12------------10-12p10--------12p10--10h11--11-----------------
D:-------------14p12------------------14p12--10h12---------------------12--------------------------
A:------------------14p12------------------14------------------------------------------------------
E:-------------------------------------------------------------------------------------------------

cont

E:-10-----10----------10-------------------------------------------------------------
B:---12p10--10-12^-------------------------------------------------------------------
G:--------------------11^-----11-12-13^13^-13^-12^12^-11^11^-9^9^-7-7-------7--------
D:--------------------------------------------------------------------9-7-----7/5-5--
A:------------------------------------------------------------------------9----------
E:-----------------------------------------------------------------------------------

Dave_Matthews_Band_-_Under_the_Table_and

Tuning

Standard E-A-D-G-B-E

Additional Tabs:

> Tim's Parts

> Main Tabs

Studio Track

Video Reference

Lie in Our Graves - Tim Live in Chicago Solo