(3:12)

E:-----------------------------------------------------------------
B:-15--12----------------------------------7-----------------------
G:---------14-11---11--9-11-9--7-------7-9---9-7--7h9--7-----------
D:---------------------------------7-9--------------------9--------
A:-----------------------------------------------------------------
E:-----------------------------------------------------------------


(3:22)

E:-----------------------------------------------------------
B:-15--12------15--12------15--12------12--15--12------------
G:---------14----------14----------14--------------14--------
D:-----------------------------------------------------------
A:-----------------------------------------------------------
E:-----------------------------------------------------------


(3:30)

E:-----------------------------------------------------------
B:-----------------------------------------------------------
G:-11-------------12--11--9--7-------------------------------
D:-----14-12-12----------------------------------------------
A:-----------------------------------------------------------
E:-----------------------------------------------------------

Dave_Matthews_Band_-_Under_the_Table_and

Tuning

Standard E-A-D-G-B-E

Additional Tabs:

> Main Tabs

Studio Track

Video Reference

Let You Down - Leroi's Whistle